ISO-10303-21;
HEADER;
FILE_DESCRIPTION (( 'STEP AP203' ),
    '1' );
FILE_NAME ('MQWP-12.7-780.STEP',
    '2020-12-22T09:29:08',
    ( '' ),
    ( '' ),
    'SwSTEP 2.0',
    'SolidWorks 2020',
    '' );
FILE_SCHEMA (( 'CONFIG_CONTROL_DESIGN' ));
ENDSEC;

DATA;
#1 = DIRECTION ( 'NONE',  ( 0.000000000000000000, 0.000000000000000000, 1.000000000000000000 ) ) ;
#2 = DIRECTION ( 'NONE',  ( 0.000000000000000000, 0.000000000000000000, 1.000000000000000000 ) ) ;
#3 = CARTESIAN_POINT ( 'NONE',  ( 0.9999999999999995559, 0.000000000000000000, 3.000000000000000000 ) ) ;
#4 = EDGE_CURVE ( 'NONE', #160, #26, #103, .T. ) ;
#5 = DIRECTION ( 'NONE',  ( -0.000000000000000000, 0.000000000000000000, 1.000000000000000000 ) ) ;
#6 = DATE_AND_TIME ( #34, #46 ) ;
#7 = DATE_AND_TIME ( #49, #121 ) ;
#8 = PRODUCT ( 'MQWP-12.7-780', 'MQWP-12.7-780', '', ( #66 ) ) ;
#9 = CC_DESIGN_APPROVAL ( #28, ( #20 ) ) ;
#10 = ORIENTED_EDGE ( 'NONE', *, *, #116, .T. ) ;
#11 = PERSON_AND_ORGANIZATION ( #78, #51 ) ;
#12 = EDGE_CURVE ( 'NONE', #26, #160, #173, .T. ) ;
#13 = VECTOR ( 'NONE', #80, 1000.000000000000000 ) ;
#14 = CARTESIAN_POINT ( 'NONE',  ( 1.224646799147353454E-16, 3.000000000000000000, 0.000000000000000000 ) ) ;
#15 = CARTESIAN_POINT ( 'NONE',  ( 2.449293598294706907E-16, 0.000000000000000000, 0.000000000000000000 ) ) ;
#16 = LINE ( 'NONE', #55, #64 ) ;
#17 = AXIS2_PLACEMENT_3D ( 'NONE', #151, #163, #94 ) ;
#18 = APPLICATION_PROTOCOL_DEFINITION ( 'international standard', 'config_control_design', 1994, #135 ) ;
#19 = DATE_AND_TIME ( #21, #139 ) ;
#20 = PRODUCT_DEFINITION_FORMATION_WITH_SPECIFIED_SOURCE ( 'ANY', '', #8, .NOT_KNOWN. ) ;
#21 = CALENDAR_DATE ( 2020, 22, 12 ) ;
#22 = EDGE_CURVE ( 'NONE', #161, #105, #145, .T. ) ;
#23 = CARTESIAN_POINT ( 'NONE',  ( 0.9999999999999995559, 0.000000000000000000, 0.000000000000000000 ) ) ;
#24 = PERSON_AND_ORGANIZATION_ROLE ( 'design_owner' ) ;
#25 = EDGE_LOOP ( 'NONE', ( #93, #10, #107, #43 ) ) ;
#26 = VERTEX_POINT ( 'NONE', #3 ) ;
#27 = LINE ( 'NONE', #67, #13 ) ;
#28 = APPROVAL ( #100, 'UNSPECIFIED' ) ;
#29 = DIRECTION ( 'NONE',  ( -1.000000000000000000, -0.000000000000000000, -0.000000000000000000 ) ) ;
#30 = CC_DESIGN_APPROVAL ( #63, ( #169 ) ) ;
#31 = FACE_OUTER_BOUND ( 'NONE', #159, .T. ) ;
#32 = ADVANCED_FACE ( 'NONE', ( #31 ), #166, .F. ) ;
#33 = CARTESIAN_POINT ( 'NONE',  ( 0.9999999999999997780, 3.000000000000000000, 0.000000000000000000 ) ) ;
#34 = CALENDAR_DATE ( 2020, 22, 12 ) ;
#35 = CALENDAR_DATE ( 2020, 22, 12 ) ;
#36 = PERSON_AND_ORGANIZATION_ROLE ( 'design_supplier' ) ;
#37 = APPROVAL_PERSON_ORGANIZATION ( #60, #28, #38 ) ;
#38 = APPROVAL_ROLE ( '' ) ;
#39 = ORIENTED_EDGE ( 'NONE', *, *, #116, .F. ) ;
#40 = ORIENTED_EDGE ( 'NONE', *, *, #84, .T. ) ;
#41 = ORIENTED_EDGE ( 'NONE', *, *, #118, .T. ) ;
#42 = LOCAL_TIME ( 17, 29, 8.000000000000000000, #48 ) ;
#43 = ORIENTED_EDGE ( 'NONE', *, *, #118, .F. ) ;
#44 = DIRECTION ( 'NONE',  ( 0.000000000000000000, 0.000000000000000000, 1.000000000000000000 ) ) ;
#45 = CARTESIAN_POINT ( 'NONE',  ( 0.000000000000000000, 0.000000000000000000, 0.000000000000000000 ) ) ;
#46 = LOCAL_TIME ( 17, 29, 8.000000000000000000, #157 ) ;
#47 = DIRECTION ( 'NONE',  ( -1.000000000000000000, -0.000000000000000000, -0.000000000000000000 ) ) ;
#48 = COORDINATED_UNIVERSAL_TIME_OFFSET ( 8, 0, .AHEAD. ) ;
#49 = CALENDAR_DATE ( 2020, 22, 12 ) ;
#50 = APPROVAL_ROLE ( '' ) ;
#51 = ORGANIZATION ( 'UNSPECIFIED', 'UNSPECIFIED', '' ) ;
#52 = EDGE_LOOP ( 'NONE', ( #40, #120 ) ) ;
#53 = UNCERTAINTY_MEASURE_WITH_UNIT (LENGTH_MEASURE( 1.000000000000000082E-05 ), #96, 'distance_accuracy_value', 'NONE');
#54 =( NAMED_UNIT ( * ) PLANE_ANGLE_UNIT ( ) SI_UNIT ( $, .RADIAN. ) );
#55 = CARTESIAN_POINT ( 'NONE',  ( 0.000000000000000000, 3.673940397442059868E-16, -3.000000000000000000 ) ) ;
#56 =( NAMED_UNIT ( * ) SI_UNIT ( $, .STERADIAN. ) SOLID_ANGLE_UNIT ( ) );
#57 = CARTESIAN_POINT ( 'NONE',  ( 0.000000000000000000, 0.000000000000000000, 0.000000000000000000 ) ) ;
#58 = APPROVAL_DATE_TIME ( #171, #63 ) ;
#59 = CC_DESIGN_PERSON_AND_ORGANIZATION_ASSIGNMENT ( #144, #70, ( #169 ) ) ;
#60 = PERSON_AND_ORGANIZATION ( #78, #51 ) ;
#61 = CC_DESIGN_PERSON_AND_ORGANIZATION_ASSIGNMENT ( #89, #24, ( #8 ) ) ;
#62 = PERSON_AND_ORGANIZATION_ROLE ( 'classification_officer' ) ;
#63 = APPROVAL ( #114, 'UNSPECIFIED' ) ;
#64 = VECTOR ( 'NONE', #140, 1000.000000000000000 ) ;
#65 = AXIS2_PLACEMENT_3D ( 'NONE', #23, #134, #1 ) ;
#66 = MECHANICAL_CONTEXT ( 'NONE', #154, 'mechanical' ) ;
#67 = CARTESIAN_POINT ( 'NONE',  ( 0.000000000000000000, 0.000000000000000000, 3.000000000000000000 ) ) ;
#68 = AXIS2_PLACEMENT_3D ( 'NONE', #14, #108, #153 ) ;
#69 = CC_DESIGN_APPROVAL ( #79, ( #124 ) ) ;
#70 = PERSON_AND_ORGANIZATION_ROLE ( 'creator' ) ;
#71 = PERSON_AND_ORGANIZATION ( #78, #51 ) ;
#72 = CC_DESIGN_SECURITY_CLASSIFICATION ( #124, ( #20 ) ) ;
#73 = ORIENTED_EDGE ( 'NONE', *, *, #4, .T. ) ;
#74 = DATE_AND_TIME ( #82, #42 ) ;
#75 = ORIENTED_EDGE ( 'NONE', *, *, #22, .F. ) ;
#76 = CYLINDRICAL_SURFACE ( 'NONE', #117, 3.000000000000000000 ) ;
#77 = DIRECTION ( 'NONE',  ( -1.000000000000000000, -0.000000000000000000, -0.000000000000000000 ) ) ;
#78 = PERSON ( 'UNSPECIFIED', 'UNSPECIFIED', 'UNSPECIFIED', ('UNSPECIFIED'), ('UNSPECIFIED'), ('UNSPECIFIED') ) ;
#79 = APPROVAL ( #87, 'UNSPECIFIED' ) ;
#80 = DIRECTION ( 'NONE',  ( -1.000000000000000000, -0.000000000000000000, -0.000000000000000000 ) ) ;
#81 = CARTESIAN_POINT ( 'NONE',  ( 0.000000000000000000, 0.000000000000000000, 0.000000000000000000 ) ) ;
#82 = CALENDAR_DATE ( 2020, 22, 12 ) ;
#83 = APPROVAL_ROLE ( '' ) ;
#84 = EDGE_CURVE ( 'NONE', #105, #161, #131, .T. ) ;
#85 = PERSON_AND_ORGANIZATION ( #78, #51 ) ;
#86 = AXIS2_PLACEMENT_3D ( 'NONE', #57, #77, #109 ) ;
#87 = APPROVAL_STATUS ( 'not_yet_approved' ) ;
#88 = APPROVAL_PERSON_ORGANIZATION ( #156, #79, #50 ) ;
#89 = PERSON_AND_ORGANIZATION ( #78, #51 ) ;
#90 = DESIGN_CONTEXT ( 'detailed design', #135, 'design' ) ;
#91 = ADVANCED_FACE ( 'NONE', ( #143 ), #152, .T. ) ;
#92 = EDGE_LOOP ( 'NONE', ( #39, #73, #41, #75 ) ) ;
#93 = ORIENTED_EDGE ( 'NONE', *, *, #12, .T. ) ;
#94 = DIRECTION ( 'NONE',  ( 0.000000000000000000, 0.000000000000000000, 1.000000000000000000 ) ) ;
#95 = DIRECTION ( 'NONE',  ( -1.000000000000000000, 0.000000000000000000, -0.000000000000000000 ) ) ;
#96 =( LENGTH_UNIT ( ) NAMED_UNIT ( * ) SI_UNIT ( .MILLI., .METRE. ) );
#97 = AXIS2_PLACEMENT_3D ( 'NONE', #81, #165, #110 ) ;
#98 = CARTESIAN_POINT ( 'NONE',  ( 2.449293598294706907E-16, 3.673940397442059868E-16, -3.000000000000000000 ) ) ;
#99 = SHAPE_DEFINITION_REPRESENTATION ( #115, #175 ) ;
#100 = APPROVAL_STATUS ( 'not_yet_approved' ) ;
#101 = COORDINATED_UNIVERSAL_TIME_OFFSET ( 8, 0, .AHEAD. ) ;
#102 = APPROVAL_DATE_TIME ( #74, #28 ) ;
#103 = CIRCLE ( 'NONE', #65, 3.000000000000000000 ) ;
#104 = COORDINATED_UNIVERSAL_TIME_OFFSET ( 8, 0, .AHEAD. ) ;
#105 = VERTEX_POINT ( 'NONE', #125 ) ;
#106 = PRODUCT_RELATED_PRODUCT_CATEGORY ( 'detail', '', ( #8 ) ) ;
#107 = ORIENTED_EDGE ( 'NONE', *, *, #84, .F. ) ;
#108 = DIRECTION ( 'NONE',  ( 1.000000000000000000, 0.000000000000000000, 0.000000000000000000 ) ) ;
#109 = DIRECTION ( 'NONE',  ( 0.000000000000000000, 0.000000000000000000, 1.000000000000000000 ) ) ;
#110 = DIRECTION ( 'NONE',  ( 1.000000000000000000, 0.000000000000000000, 0.000000000000000000 ) ) ;
#111 = DATE_TIME_ROLE ( 'creation_date' ) ;
#112 = AXIS2_PLACEMENT_3D ( 'NONE', #15, #123, #2 ) ;
#113 =( GEOMETRIC_REPRESENTATION_CONTEXT ( 3 ) GLOBAL_UNCERTAINTY_ASSIGNED_CONTEXT ( ( #53 ) ) GLOBAL_UNIT_ASSIGNED_CONTEXT ( ( #96, #54, #56 ) ) REPRESENTATION_CONTEXT ( 'NONE', 'WORKASPACE' ) );
#114 = APPROVAL_STATUS ( 'not_yet_approved' ) ;
#115 = PRODUCT_DEFINITION_SHAPE ( 'NONE', 'NONE',  #169 ) ;
#116 = EDGE_CURVE ( 'NONE', #160, #161, #16, .T. ) ;
#117 = AXIS2_PLACEMENT_3D ( 'NONE', #45, #47, #138 ) ;
#118 = EDGE_CURVE ( 'NONE', #26, #105, #27, .T. ) ;
#119 = COORDINATED_UNIVERSAL_TIME_OFFSET ( 8, 0, .AHEAD. ) ;
#120 = ORIENTED_EDGE ( 'NONE', *, *, #22, .T. ) ;
#121 = LOCAL_TIME ( 17, 29, 8.000000000000000000, #119 ) ;
#122 = ORIENTED_EDGE ( 'NONE', *, *, #4, .F. ) ;
#123 = DIRECTION ( 'NONE',  ( -1.000000000000000000, -0.000000000000000000, -0.000000000000000000 ) ) ;
#124 = SECURITY_CLASSIFICATION ( '', '', #168 ) ;
#125 = CARTESIAN_POINT ( 'NONE',  ( 2.449293598294706907E-16, 0.000000000000000000, 3.000000000000000000 ) ) ;
#126 = FACE_OUTER_BOUND ( 'NONE', #25, .T. ) ;
#127 = ADVANCED_FACE ( 'NONE', ( #126 ), #76, .T. ) ;
#128 = CARTESIAN_POINT ( 'NONE',  ( 2.449293598294706907E-16, 0.000000000000000000, 0.000000000000000000 ) ) ;
#129 = PERSON_AND_ORGANIZATION_ROLE ( 'creator' ) ;
#130 = AXIS2_PLACEMENT_3D ( 'NONE', #128, #29, #44 ) ;
#131 = CIRCLE ( 'NONE', #112, 3.000000000000000000 ) ;
#132 = PERSON_AND_ORGANIZATION ( #78, #51 ) ;
#133 = ORIENTED_EDGE ( 'NONE', *, *, #12, .F. ) ;
#134 = DIRECTION ( 'NONE',  ( -1.000000000000000000, -0.000000000000000000, -0.000000000000000000 ) ) ;
#135 = APPLICATION_CONTEXT ( 'configuration controlled 3d designs of mechanical parts and assemblies' ) ;
#136 = PLANE ( 'NONE',  #68 ) ;
#137 = CC_DESIGN_DATE_AND_TIME_ASSIGNMENT ( #7, #170, ( #124 ) ) ;
#138 = DIRECTION ( 'NONE',  ( 0.000000000000000000, 0.000000000000000000, 1.000000000000000000 ) ) ;
#139 = LOCAL_TIME ( 17, 29, 8.000000000000000000, #101 ) ;
#140 = DIRECTION ( 'NONE',  ( -1.000000000000000000, -0.000000000000000000, -0.000000000000000000 ) ) ;
#141 = CARTESIAN_POINT ( 'NONE',  ( 0.9999999999999995559, 3.673940397442059868E-16, -3.000000000000000000 ) ) ;
#142 = CC_DESIGN_PERSON_AND_ORGANIZATION_ASSIGNMENT ( #11, #129, ( #20 ) ) ;
#143 = FACE_OUTER_BOUND ( 'NONE', #92, .T. ) ;
#144 = PERSON_AND_ORGANIZATION ( #78, #51 ) ;
#145 = CIRCLE ( 'NONE', #130, 3.000000000000000000 ) ;
#146 = APPROVAL_DATE_TIME ( #6, #79 ) ;
#147 = CC_DESIGN_PERSON_AND_ORGANIZATION_ASSIGNMENT ( #132, #62, ( #124 ) ) ;
#148 = CLOSED_SHELL ( 'NONE', ( #127, #91, #32, #158 ) ) ;
#149 = CC_DESIGN_PERSON_AND_ORGANIZATION_ASSIGNMENT ( #71, #36, ( #20 ) ) ;
#150 = APPROVAL_PERSON_ORGANIZATION ( #85, #63, #83 ) ;
#151 = CARTESIAN_POINT ( 'NONE',  ( 0.9999999999999995559, 0.000000000000000000, 0.000000000000000000 ) ) ;
#152 = CYLINDRICAL_SURFACE ( 'NONE', #86, 3.000000000000000000 ) ;
#153 = DIRECTION ( 'NONE',  ( 0.000000000000000000, 0.000000000000000000, -1.000000000000000000 ) ) ;
#154 = APPLICATION_CONTEXT ( 'configuration controlled 3d designs of mechanical parts and assemblies' ) ;
#155 = APPLICATION_PROTOCOL_DEFINITION ( 'international standard', 'config_control_design', 1994, #154 ) ;
#156 = PERSON_AND_ORGANIZATION ( #78, #51 ) ;
#157 = COORDINATED_UNIVERSAL_TIME_OFFSET ( 8, 0, .AHEAD. ) ;
#158 = ADVANCED_FACE ( 'NONE', ( #167 ), #136, .F. ) ;
#159 = EDGE_LOOP ( 'NONE', ( #133, #122 ) ) ;
#160 = VERTEX_POINT ( 'NONE', #141 ) ;
#161 = VERTEX_POINT ( 'NONE', #98 ) ;
#162 = AXIS2_PLACEMENT_3D ( 'NONE', #33, #95, #5 ) ;
#163 = DIRECTION ( 'NONE',  ( -1.000000000000000000, -0.000000000000000000, -0.000000000000000000 ) ) ;
#164 = LOCAL_TIME ( 17, 29, 8.000000000000000000, #104 ) ;
#165 = DIRECTION ( 'NONE',  ( 0.000000000000000000, 0.000000000000000000, 1.000000000000000000 ) ) ;
#166 = PLANE ( 'NONE',  #162 ) ;
#167 = FACE_OUTER_BOUND ( 'NONE', #52, .T. ) ;
#168 = SECURITY_CLASSIFICATION_LEVEL ( 'unclassified' ) ;
#169 = PRODUCT_DEFINITION ( 'UNKNOWN', '', #20, #90 ) ;
#170 = DATE_TIME_ROLE ( 'classification_date' ) ;
#171 = DATE_AND_TIME ( #35, #164 ) ;
#172 = CC_DESIGN_DATE_AND_TIME_ASSIGNMENT ( #19, #111, ( #169 ) ) ;
#173 = CIRCLE ( 'NONE', #17, 3.000000000000000000 ) ;
#174 = MANIFOLD_SOLID_BREP ( 'Ðý×', #148 ) ;
#175 = ADVANCED_BREP_SHAPE_REPRESENTATION ( 'MQWP-12.7-780', ( #174, #97 ), #113 ) ;
ENDSEC;
END-ISO-10303-21;
